» Добавить в закладки
      
 
  Главная    Аккорды    Рейтинг    Поиск    Фонотека    Новые  
 Аккорды:   ENG: A B C D E F G H I J K L M N O P Q R S T U V W X Y Z 0-9
                        RUS: А Б В Г Д Е Ж З И К Л М Н О П Р С Т У Ф Х Ц Ч Ш Щ Э Ю Я
Поиск аккордов:
Разделы
: Рейтинг TOP-50 mp3
: Фонотека mp3
: Новые mp3
: Поиск mp3
: Аккордыnew
: Гостевуха
: Другие mp3 бесплатно
Скачать бесплатные mp3 без регистрации
Free foreign mp3 for free






Аккорды - Песни из кинофильмов - Тема Сицилии (из К/ф "Крёстный Отец")
Рейтинг: 391
Грустно и сильно!
e---------------------------------------------------------------|
B-----1-4-3-1-4-1-3-1-----------1-4-3-1-4-1-3-1-----------------|
G---0-----------------1-3-0---0---------------------------------|
D-----------------------------------------------5-4-3-----------|
A---------------------------------------------------------------|
E---------------------------------------------------------------|
e---------------------------------------------------------------|
B-------0-3-------0-1------------------------0-1----------------|
G---------------------------3-1-0-3-1-0--0-0--------------------|
D---3-6-------3-6---------1-------------------------------------|
A-----------------------3---------------------------------------|
E---------------------------------------------------------------|
Вещь, давно ставшая классикой!













Аккорды - разделы:
: Рейтинг песен
: Поиск песни
Другие архивы
Лучшие mp3 бесплатно
Бесплатные mp3
Free mp3
mp3 музыка





AdTrade.ru - рекламная сеть. Платим 1$ за тысячу показов rich-медиа

Art54.ru - студия веб-дизайна




Rambler's Top100
2006 © ump3.ru
рулетка казино, игровые автоматы , организации концертов группа фабрика , стоимость декоративная штукатурка венецианская штукатурка , международные перевозки международные автоперевозки Амьен , проститутки москвы и досуг, девушки, интим досуг Ликвидация фирм предприятий
Ищете друга? щенки боксера здесь
архитектурные элементы
авиакассы, продажа авиабилетов, авиабилеты заказ у нас