» Добавить в закладки
      
 
  Главная    Аккорды    Рейтинг    Поиск    Фонотека    Новые  
 Аккорды:   ENG: A B C D E F G H I J K L M N O P Q R S T U V W X Y Z 0-9
                        RUS: А Б В Г Д Е Ж З И К Л М Н О П Р С Т У Ф Х Ц Ч Ш Щ Э Ю Я
Поиск аккордов:
Разделы
: Рейтинг TOP-50 mp3
: Фонотека mp3
: Новые mp3
: Поиск mp3
: Аккордыnew
: Гостевуха
: Другие mp3 бесплатно
Скачать бесплатные mp3 без регистрации
Free foreign mp3 for free






Аккорды - Песни из кинофильмов - Тема К Фильму "Крёстный Отец"
Рейтинг: 700
1. Основная тема (звучит в начале первой части)
                |-------------------------------|
                |-15----14-15-16-15-15----------|
                |-----------------------15~~~~\\-|
                |-------------------------------|
                |-------------------------------|
                |-------------------------------|
                |---------------------------------------|
                |--15---14-15-16-15-15------------------|
                |----------------------14~~~~\\----------|
                |---------------------------------------|
                |---------------------------------------|
                |---------------------------------------|
                |-------------13------------------|
                |-15~~~-14-15----15-14---17--15---|
                |---------------------------------|
                |---------------------------------|
                |---------------------------------|
                |---------------------------------|
                |-----------------------------------------|
                |---------------14------------------------|
                |--15--14--15-------15---14~~~~~\\---------|
                |-----------------------------------------|
                |-----------------------------------------|
                |-----------------------------------------|
                2. Сицилия
                |----10-13-12-10-13-10-12-10----------|
                |-10-------------------------11-13-10-|
                |-------------------------------------|
                |-------------------------------------|
                |-------------------------------------|
                |-------------------------------------|
                |----10-13-12-10-13-10-12-10----------|
                |-10-------------------------/10-9-8--|
                |-------------------------------------|
                |-------------------------------------|
                |-------------------------------------|
                |-------------------------------------|
                |-----------/-------------|
                |----6-9--12----6--9-10---|
                |-/7----------7-----------|
                |-------------------------|
                |-------------------------|
                |-------------------------|
                |---------------------------------------|
                |--------13-11-10-13-11-11-10-10--------|
                |-----10--------------------------------|
                |-/12---------------------------11-12---|
                |---------------------------------------|
                |---------------------------------------|
                |-10-10-9-8-10/12-10---------|
                |--------------------11-10---|
                |----------------------------|
                |----------------------------|
                |----------------------------|
                |----------------------------|
                |---------------------------------10--|
                |--10-13-10-8----8-11-9-10-----10-----|
                |-------------------------------------|
                |-------------------------------------|
                |-------------------------------------|
                |-------------------------------------|













Аккорды - разделы:
: Рейтинг песен
: Поиск песни
Другие архивы
Лучшие mp3 бесплатно
Бесплатные mp3
Free mp3
mp3 музыка





AdTrade.ru - рекламная сеть. Платим 1$ за тысячу показов rich-медиа

Art54.ru - студия веб-дизайна




Rambler's Top100
2006 © ump3.ru
рулетка казино, игровые автоматы , организации концертов группа фабрика , стоимость декоративная штукатурка венецианская штукатурка , международные перевозки международные автоперевозки Амьен , проститутки москвы и досуг, девушки, интим досуг Где найти цены на Матричные принтеры, описания
лицензия на цветные металлы, защита прав предпринимателей
офисный переезд, предлагаем грузовые перевозки здесь
Здесь Вы можете заказать курсовую